ISO-10303-21;
HEADER;
FILE_DESCRIPTION (( 'STEP AP203' ),
    '1' );
FILE_NAME ('End Cap SDR17_001 115 0140 0315.step',
    '2019-12-16T11:43:32',
    ( '' ),
    ( '' ),
    'SwSTEP 2.0',
    'SolidWorks 2019',
    '' );
FILE_SCHEMA (( 'CONFIG_CONTROL_DESIGN' ));
ENDSEC;

DATA;
#1 = ORIENTED_EDGE ( 'NONE', *, *, #109, .F. ) ;
#2 = EDGE_CURVE ( 'NONE', #102, #215, #130, .T. ) ;
#3 = ORIENTED_EDGE ( 'NONE', *, *, #67, .T. ) ;
#4 = ORIENTED_EDGE ( 'NONE', *, *, #246, .F. ) ;
#5 = DIRECTION ( 'NONE',  ( 0.0000000000000000000, 0.0000000000000000000, -1.000000000000000000 ) ) ;
#6 = AXIS2_PLACEMENT_3D ( 'NONE', #295, #89, #192 ) ;
#7 =( GEOMETRIC_REPRESENTATION_CONTEXT ( 3 ) GLOBAL_UNCERTAINTY_ASSIGNED_CONTEXT ( ( #279 ) ) GLOBAL_UNIT_ASSIGNED_CONTEXT ( ( #15, #294, #273 ) ) REPRESENTATION_CONTEXT ( 'NONE', 'WORKASPACE' ) );
#8 = ORIENTED_EDGE ( 'NONE', *, *, #12, .F. ) ;
#9 = FACE_OUTER_BOUND ( 'NONE', #284, .T. ) ;
#10 = ORIENTED_EDGE ( 'NONE', *, *, #277, .T. ) ;
#11 = CARTESIAN_POINT ( 'NONE',  ( 0.0000000000000000000, -446.4920310496137859, 0.0000000000000000000 ) ) ;
#12 = EDGE_CURVE ( 'NONE', #302, #49, #171, .T. ) ;
#13 = ORIENTED_EDGE ( 'NONE', *, *, #216, .T. ) ;
#14 = DIRECTION ( 'NONE',  ( -0.0000000000000000000, -1.000000000000000000, -0.0000000000000000000 ) ) ;
#15 =( LENGTH_UNIT ( ) NAMED_UNIT ( * ) SI_UNIT ( .MILLI., .METRE. ) );
#16 = APPROVAL_STATUS ( 'not_yet_approved' ) ;
#17 = APPROVAL_STATUS ( 'not_yet_approved' ) ;
#18 = AXIS2_PLACEMENT_3D ( 'NONE', #170, #251, #34 ) ;
#19 = COORDINATED_UNIVERSAL_TIME_OFFSET ( 3, 0, .AHEAD. ) ;
#20 = ORIENTED_EDGE ( 'NONE', *, *, #230, .F. ) ;
#21 = VERTEX_POINT ( 'NONE', #73 ) ;
#22 = PERSON ( 'BELÝRTÝLMEMÝÞ', 'BELÝRTÝLMEMÝÞ', 'BELÝRTÝLMEMÝÞ', ('BELÝRTÝLMEMÝÞ'), ('BELÝRTÝLMEMÝÞ'), ('BELÝRTÝLMEMÝÞ') ) ;
#23 = CC_DESIGN_DATE_AND_TIME_ASSIGNMENT ( #40, #147, ( #200 ) ) ;
#24 = CARTESIAN_POINT ( 'NONE',  ( -7.372574772901430151E-14, 183.4876278820568700, 0.0000000000000000000 ) ) ;
#25 = ORIENTED_EDGE ( 'NONE', *, *, #225, .F. ) ;
#26 = DIRECTION ( 'NONE',  ( 0.0000000000000000000, -1.000000000000000000, -0.0000000000000000000 ) ) ;
#27 = CC_DESIGN_SECURITY_CLASSIFICATION ( #87, ( #307 ) ) ;
#28 = DIRECTION ( 'NONE',  ( -0.0000000000000000000, -1.000000000000000000, -0.0000000000000000000 ) ) ;
#29 = DIRECTION ( 'NONE',  ( 0.0000000000000000000, 0.0000000000000000000, -1.000000000000000000 ) ) ;
#30 = CARTESIAN_POINT ( 'NONE',  ( 0.0000000000000000000, 164.7876278820567961, 0.0000000000000000000 ) ) ;
#31 = AXIS2_PLACEMENT_3D ( 'NONE', #208, #293, #88 ) ;
#32 = FACE_OUTER_BOUND ( 'NONE', #157, .T. ) ;
#33 = FACE_OUTER_BOUND ( 'NONE', #129, .T. ) ;
#34 = DIRECTION ( 'NONE',  ( 0.0000000000000000000, 0.0000000000000000000, -1.000000000000000000 ) ) ;
#35 = AXIS2_PLACEMENT_3D ( 'NONE', #228, #14, #116 ) ;
#36 = CIRCLE ( 'NONE', #31, 138.7999999999999545 ) ;
#37 = MANIFOLD_SOLID_BREP ( 'Döndür1', #175 ) ;
#38 = APPLICATION_PROTOCOL_DEFINITION ( 'international standard', 'config_control_design', 1994, #232 ) ;
#39 = PERSON_AND_ORGANIZATION_ROLE ( 'design_owner' ) ;
#40 = DATE_AND_TIME ( #253, #149 ) ;
#41 = SECURITY_CLASSIFICATION_LEVEL ( 'unclassified' ) ;
#42 = LOCAL_TIME ( 14, 43, 32.00000000000000000, #211 ) ;
#43 = VERTEX_POINT ( 'NONE', #181 ) ;
#44 = APPROVAL_DATE_TIME ( #258, #306 ) ;
#45 = ORIENTED_EDGE ( 'NONE', *, *, #165, .T. ) ;
#46 = ORIENTED_EDGE ( 'NONE', *, *, #237, .F. ) ;
#47 = ORIENTED_EDGE ( 'NONE', *, *, #277, .F. ) ;
#48 = ORIENTED_EDGE ( 'NONE', *, *, #230, .T. ) ;
#49 = VERTEX_POINT ( 'NONE', #262 ) ;
#50 = AXIS2_PLACEMENT_3D ( 'NONE', #85, #169, #250 ) ;
#51 = CARTESIAN_POINT ( 'NONE',  ( 0.0000000000000000000, -446.4920310496137859, -5.062542082398497456 ) ) ;
#52 = FACE_BOUND ( 'NONE', #71, .T. ) ;
#53 = DESIGN_CONTEXT ( 'detailed design', #249, 'design' ) ;
#54 = CIRCLE ( 'NONE', #50, 611.3006222440442343 ) ;
#55 = CARTESIAN_POINT ( 'NONE',  ( 0.0000000000000000000, 0.0000000000000000000, -138.7999999999999829 ) ) ;
#56 = AXIS2_PLACEMENT_3D ( 'NONE', #189, #271, #62 ) ;
#57 = CARTESIAN_POINT ( 'NONE',  ( 1.928818708657081108E-14, 0.0000000000000000000, 157.4999999999999716 ) ) ;
#58 = CARTESIAN_POINT ( 'NONE',  ( 0.0000000000000000000, 164.7876278820567961, 0.0000000000000000000 ) ) ;
#59 = CARTESIAN_POINT ( 'NONE',  ( 0.0000000000000000000, 0.0000000000000000000, 0.0000000000000000000 ) ) ;
#60 = CC_DESIGN_DATE_AND_TIME_ASSIGNMENT ( #212, #299, ( #87 ) ) ;
#61 = ORGANIZATION ( 'BELÝRTÝLMEMÝÞ', 'BELÝRTÝLMEMÝÞ', '' ) ;
#62 = DIRECTION ( 'NONE',  ( 0.0000000000000000000, 0.0000000000000000000, -1.000000000000000000 ) ) ;
#63 = CYLINDRICAL_SURFACE ( 'NONE', #18, 138.7999999999999829 ) ;
#64 = TOROIDAL_SURFACE ( 'NONE', #56, 5.062542082398497456, 611.3006222440442343 ) ;
#65 = AXIS2_PLACEMENT_3D ( 'NONE', #11, #115, #206 ) ;
#66 = PERSON_AND_ORGANIZATION_ROLE ( 'creator' ) ;
#67 = EDGE_CURVE ( 'NONE', #72, #21, #162, .T. ) ;
#68 = PERSON_AND_ORGANIZATION_ROLE ( 'creator' ) ;
#69 = COORDINATED_UNIVERSAL_TIME_OFFSET ( 3, 0, .AHEAD. ) ;
#70 = ORIENTED_EDGE ( 'NONE', *, *, #182, .F. ) ;
#71 = EDGE_LOOP ( 'NONE', ( #25, #97 ) ) ;
#72 = VERTEX_POINT ( 'NONE', #24 ) ;
#73 = CARTESIAN_POINT ( 'NONE',  ( 0.0000000000000000000, 164.7876278820567961, -157.4999999999999716 ) ) ;
#74 = AXIS2_PLACEMENT_3D ( 'NONE', #59, #167, #248 ) ;
#75 = DIRECTION ( 'NONE',  ( 1.000000000000000000, 0.0000000000000000000, -1.224646799147353207E-16 ) ) ;
#76 = DIRECTION ( 'NONE',  ( 0.0000000000000000000, 0.0000000000000000000, -1.000000000000000000 ) ) ;
#77 = ORIENTED_EDGE ( 'NONE', *, *, #246, .T. ) ;
#78 = TOROIDAL_SURFACE ( 'NONE', #65, 5.062542082398497456, 630.0000000000001137 ) ;
#79 = DIRECTION ( 'NONE',  ( 0.0000000000000000000, 0.0000000000000000000, -1.000000000000000000 ) ) ;
#80 = AXIS2_PLACEMENT_3D ( 'NONE', #205, #291, #83 ) ;
#81 = CARTESIAN_POINT ( 'NONE',  ( 0.0000000000000000000, 0.0000000000000000000, 0.0000000000000000000 ) ) ;
#82 = ORIENTED_EDGE ( 'NONE', *, *, #2, .F. ) ;
#83 = DIRECTION ( 'NONE',  ( 0.0000000000000000000, 0.0000000000000000000, -1.000000000000000000 ) ) ;
#84 = CC_DESIGN_PERSON_AND_ORGANIZATION_ASSIGNMENT ( #276, #66, ( #200 ) ) ;
#85 = CARTESIAN_POINT ( 'NONE',  ( 0.0000000000000000000, -446.4920310496137859, -5.062542082398497456 ) ) ;
#86 = AXIS2_PLACEMENT_3D ( 'NONE', #30, #139, #224 ) ;
#87 = SECURITY_CLASSIFICATION ( '', '', #41 ) ;
#88 = DIRECTION ( 'NONE',  ( 0.0000000000000000000, 0.0000000000000000000, -1.000000000000000000 ) ) ;
#89 = DIRECTION ( 'NONE',  ( 0.0000000000000000000, 0.0000000000000000000, 1.000000000000000000 ) ) ;
#90 = CIRCLE ( 'NONE', #86, 157.4999999999999716 ) ;
#91 = AXIS2_PLACEMENT_3D ( 'NONE', #58, #166, #245 ) ;
#92 = EDGE_CURVE ( 'NONE', #43, #215, #160, .T. ) ;
#93 = DATE_AND_TIME ( #296, #107 ) ;
#94 = DATE_AND_TIME ( #298, #42 ) ;
#95 = PERSON_AND_ORGANIZATION ( #22, #61 ) ;
#96 = ORIENTED_EDGE ( 'NONE', *, *, #225, .T. ) ;
#97 = ORIENTED_EDGE ( 'NONE', *, *, #165, .F. ) ;
#98 = CIRCLE ( 'NONE', #91, 157.4999999999999716 ) ;
#99 = AXIS2_PLACEMENT_3D ( 'NONE', #81, #187, #267 ) ;
#100 = CIRCLE ( 'NONE', #99, 157.4999999999999716 ) ;
#101 = ORIENTED_EDGE ( 'NONE', *, *, #241, .F. ) ;
#102 = VERTEX_POINT ( 'NONE', #106 ) ;
#103 = VERTEX_POINT ( 'NONE', #201 ) ;
#104 = CARTESIAN_POINT ( 'NONE',  ( 6.199825956758096381E-16, -446.4920310496137859, 5.062542082398497456 ) ) ;
#105 = VECTOR ( 'NONE', #290, 1000.000000000000000 ) ;
#106 = CARTESIAN_POINT ( 'NONE',  ( 1.928818708657081108E-14, 164.7876278820567961, 157.4999999999999716 ) ) ;
#107 = LOCAL_TIME ( 14, 43, 32.00000000000000000, #210 ) ;
#108 = CARTESIAN_POINT ( 'NONE',  ( 0.0000000000000000000, 0.0000000000000000000, 0.0000000000000000000 ) ) ;
#109 = EDGE_CURVE ( 'NONE', #72, #102, #155, .T. ) ;
#110 = LINE ( 'NONE', #186, #121 ) ;
#111 = ADVANCED_FACE ( 'NONE', ( #264, #52 ), #159, .T. ) ;
#112 = LINE ( 'NONE', #204, #105 ) ;
#113 = AXIS2_PLACEMENT_3D ( 'NONE', #138, #223, #5 ) ;
#114 = CYLINDRICAL_SURFACE ( 'NONE', #80, 157.4999999999999716 ) ;
#115 = DIRECTION ( 'NONE',  ( -0.0000000000000000000, -1.000000000000000000, -0.0000000000000000000 ) ) ;
#116 = DIRECTION ( 'NONE',  ( 0.0000000000000000000, 0.0000000000000000000, -1.000000000000000000 ) ) ;
#117 = CIRCLE ( 'NONE', #113, 138.7999999999999829 ) ;
#118 = AXIS2_PLACEMENT_3D ( 'NONE', #164, #244, #29 ) ;
#119 = APPROVAL_ROLE ( '' ) ;
#120 = CIRCLE ( 'NONE', #118, 138.7999999999999545 ) ;
#121 = VECTOR ( 'NONE', #266, 1000.000000000000000 ) ;
#122 = APPROVAL_ROLE ( '' ) ;
#123 = CC_DESIGN_PERSON_AND_ORGANIZATION_ASSIGNMENT ( #150, #234, ( #87 ) ) ;
#124 = CC_DESIGN_PERSON_AND_ORGANIZATION_ASSIGNMENT ( #252, #39, ( #131 ) ) ;
#125 = CALENDAR_DATE ( 2019, 16, 12 ) ;
#126 = ORIENTED_EDGE ( 'NONE', *, *, #92, .F. ) ;
#127 = AXIS2_PLACEMENT_3D ( 'NONE', #203, #288, #79 ) ;
#128 = TOROIDAL_SURFACE ( 'NONE', #127, 5.062542082398497456, 630.0000000000001137 ) ;
#129 = EDGE_LOOP ( 'NONE', ( #82, #77, #48, #46 ) ) ;
#130 = LINE ( 'NONE', #217, #172 ) ;
#131 = PRODUCT ( 'End Cap SDR17_001 115 0140 0315', 'End Cap SDR17_001 115 0140 0315', '', ( #274 ) ) ;
#132 = CARTESIAN_POINT ( 'NONE',  ( 0.0000000000000000000, 0.0000000000000000000, 0.0000000000000000000 ) ) ;
#133 = VECTOR ( 'NONE', #28, 1000.000000000000000 ) ;
#134 = AXIS2_PLACEMENT_3D ( 'NONE', #108, #185, #265 ) ;
#135 = DIRECTION ( 'NONE',  ( 0.0000000000000000000, 0.0000000000000000000, -1.000000000000000000 ) ) ;
#136 = APPROVAL_PERSON_ORGANIZATION ( #95, #306, #281 ) ;
#137 = CARTESIAN_POINT ( 'NONE',  ( 0.0000000000000000000, 150.0000000000000284, -138.7999999999999545 ) ) ;
#138 = CARTESIAN_POINT ( 'NONE',  ( 0.0000000000000000000, 0.0000000000000000000, 0.0000000000000000000 ) ) ;
#139 = DIRECTION ( 'NONE',  ( -0.0000000000000000000, -1.000000000000000000, -0.0000000000000000000 ) ) ;
#140 = CIRCLE ( 'NONE', #134, 138.7999999999999829 ) ;
#141 = AXIS2_PLACEMENT_3D ( 'NONE', #202, #287, #76 ) ;
#142 = CYLINDRICAL_SURFACE ( 'NONE', #35, 157.4999999999999716 ) ;
#143 = TOROIDAL_SURFACE ( 'NONE', #141, 5.062542082398497456, 611.3006222440442343 ) ;
#144 = ADVANCED_FACE ( 'NONE', ( #221 ), #143, .F. ) ;
#145 = APPLICATION_PROTOCOL_DEFINITION ( 'international standard', 'config_control_design', 1994, #249 ) ;
#146 = APPROVAL ( #16, 'BELÝRTÝLMEMÝÞ' ) ;
#147 = DATE_TIME_ROLE ( 'creation_date' ) ;
#148 = AXIS2_PLACEMENT_3D ( 'NONE', #242, #26, #135 ) ;
#149 = LOCAL_TIME ( 14, 43, 32.00000000000000000, #173 ) ;
#150 = PERSON_AND_ORGANIZATION ( #22, #61 ) ;
#151 = SHAPE_DEFINITION_REPRESENTATION ( #239, #275 ) ;
#152 = ORIENTED_EDGE ( 'NONE', *, *, #182, .T. ) ;
#153 = ORIENTED_EDGE ( 'NONE', *, *, #12, .T. ) ;
#154 = AXIS2_PLACEMENT_3D ( 'NONE', #286, #75, #184 ) ;
#155 = CIRCLE ( 'NONE', #154, 630.0000000000001137 ) ;
#156 = AXIS2_PLACEMENT_3D ( 'NONE', #132, #218, #304 ) ;
#157 = EDGE_LOOP ( 'NONE', ( #260, #197, #101 ) ) ;
#158 = DIRECTION ( 'NONE',  ( -1.000000000000000000, 0.0000000000000000000, 0.0000000000000000000 ) ) ;
#159 = PLANE ( 'NONE',  #148 ) ;
#160 = CIRCLE ( 'NONE', #156, 157.4999999999999716 ) ;
#161 = AXIS2_PLACEMENT_3D ( 'NONE', #51, #158, #240 ) ;
#162 = CIRCLE ( 'NONE', #161, 630.0000000000001137 ) ;
#163 = LINE ( 'NONE', #243, #133 ) ;
#164 = CARTESIAN_POINT ( 'NONE',  ( 0.0000000000000000000, 150.0000000000000284, 0.0000000000000000000 ) ) ;
#165 = EDGE_CURVE ( 'NONE', #103, #179, #140, .T. ) ;
#166 = DIRECTION ( 'NONE',  ( -0.0000000000000000000, -1.000000000000000000, -0.0000000000000000000 ) ) ;
#167 = DIRECTION ( 'NONE',  ( -0.0000000000000000000, -1.000000000000000000, -0.0000000000000000000 ) ) ;
#168 = AXIS2_PLACEMENT_3D ( 'NONE', #104, #199, #285 ) ;
#169 = DIRECTION ( 'NONE',  ( -1.000000000000000000, 0.0000000000000000000, 0.0000000000000000000 ) ) ;
#170 = CARTESIAN_POINT ( 'NONE',  ( 0.0000000000000000000, 0.0000000000000000000, 0.0000000000000000000 ) ) ;
#171 = CIRCLE ( 'NONE', #168, 611.3006222440442343 ) ;
#172 = VECTOR ( 'NONE', #303, 1000.000000000000000 ) ;
#173 = COORDINATED_UNIVERSAL_TIME_OFFSET ( 3, 0, .AHEAD. ) ;
#174 = PERSON_AND_ORGANIZATION ( #22, #61 ) ;
#175 = CLOSED_SHELL ( 'NONE', ( #268, #263, #247, #305, #254, #111, #289, #207, #144 ) ) ;
#176 = CC_DESIGN_APPROVAL ( #306, ( #87 ) ) ;
#177 = CALENDAR_DATE ( 2019, 16, 12 ) ;
#178 = EDGE_LOOP ( 'NONE', ( #70, #282, #196, #96 ) ) ;
#179 = VERTEX_POINT ( 'NONE', #55 ) ;
#180 = EDGE_LOOP ( 'NONE', ( #1, #3, #4 ) ) ;
#181 = CARTESIAN_POINT ( 'NONE',  ( 0.0000000000000000000, 0.0000000000000000000, -157.4999999999999716 ) ) ;
#182 = EDGE_CURVE ( 'NONE', #49, #103, #163, .T. ) ;
#183 = CC_DESIGN_PERSON_AND_ORGANIZATION_ASSIGNMENT ( #174, #256, ( #307 ) ) ;
#184 = DIRECTION ( 'NONE',  ( -1.224646799147353207E-16, 0.0000000000000000000, -1.000000000000000000 ) ) ;
#185 = DIRECTION ( 'NONE',  ( -0.0000000000000000000, -1.000000000000000000, -0.0000000000000000000 ) ) ;
#186 = CARTESIAN_POINT ( 'NONE',  ( 0.0000000000000000000, 0.0000000000000000000, -138.7999999999999829 ) ) ;
#187 = DIRECTION ( 'NONE',  ( -0.0000000000000000000, -1.000000000000000000, -0.0000000000000000000 ) ) ;
#188 = FACE_OUTER_BOUND ( 'NONE', #178, .T. ) ;
#189 = CARTESIAN_POINT ( 'NONE',  ( 0.0000000000000000000, -446.4920310496137859, 0.0000000000000000000 ) ) ;
#190 = APPROVAL_PERSON_ORGANIZATION ( #231, #278, #122 ) ;
#191 = CARTESIAN_POINT ( 'NONE',  ( -2.820494819939319995E-14, 164.7876278820567961, 0.0000000000000000000 ) ) ;
#192 = DIRECTION ( 'NONE',  ( 1.000000000000000000, 0.0000000000000000000, 0.0000000000000000000 ) ) ;
#193 = APPROVAL_DATE_TIME ( #93, #146 ) ;
#194 = APPROVAL_DATE_TIME ( #94, #278 ) ;
#195 = APPROVAL_STATUS ( 'not_yet_approved' ) ;
#196 = ORIENTED_EDGE ( 'NONE', *, *, #209, .T. ) ;
#197 = ORIENTED_EDGE ( 'NONE', *, *, #109, .T. ) ;
#198 = VERTEX_POINT ( 'NONE', #137 ) ;
#199 = DIRECTION ( 'NONE',  ( 1.000000000000000000, 0.0000000000000000000, -1.224646799147353207E-16 ) ) ;
#200 = PRODUCT_DEFINITION ( 'BÝLÝNMEYEN', '', #307, #53 ) ;
#201 = CARTESIAN_POINT ( 'NONE',  ( 1.699809757216525939E-14, 0.0000000000000000000, 138.7999999999999829 ) ) ;
#202 = CARTESIAN_POINT ( 'NONE',  ( 0.0000000000000000000, -446.4920310496137859, 0.0000000000000000000 ) ) ;
#203 = CARTESIAN_POINT ( 'NONE',  ( 0.0000000000000000000, -446.4920310496137859, 0.0000000000000000000 ) ) ;
#204 = CARTESIAN_POINT ( 'NONE',  ( 0.0000000000000000000, 0.0000000000000000000, -157.4999999999999716 ) ) ;
#205 = CARTESIAN_POINT ( 'NONE',  ( 0.0000000000000000000, 0.0000000000000000000, 0.0000000000000000000 ) ) ;
#206 = DIRECTION ( 'NONE',  ( 0.0000000000000000000, 0.0000000000000000000, -1.000000000000000000 ) ) ;
#207 = ADVANCED_FACE ( 'NONE', ( #222 ), #128, .T. ) ;
#208 = CARTESIAN_POINT ( 'NONE',  ( 0.0000000000000000000, 150.0000000000000284, 0.0000000000000000000 ) ) ;
#209 = EDGE_CURVE ( 'NONE', #198, #179, #110, .T. ) ;
#210 = COORDINATED_UNIVERSAL_TIME_OFFSET ( 3, 0, .AHEAD. ) ;
#211 = COORDINATED_UNIVERSAL_TIME_OFFSET ( 3, 0, .AHEAD. ) ;
#212 = DATE_AND_TIME ( #125, #257 ) ;
#213 = ORIENTED_EDGE ( 'NONE', *, *, #92, .T. ) ;
#214 = ORIENTED_EDGE ( 'NONE', *, *, #2, .T. ) ;
#215 = VERTEX_POINT ( 'NONE', #57 ) ;
#216 = EDGE_CURVE ( 'NONE', #198, #49, #120, .T. ) ;
#217 = CARTESIAN_POINT ( 'NONE',  ( 1.928818708657081108E-14, 0.0000000000000000000, 157.4999999999999716 ) ) ;
#218 = DIRECTION ( 'NONE',  ( -0.0000000000000000000, -1.000000000000000000, -0.0000000000000000000 ) ) ;
#219 = ORIENTED_EDGE ( 'NONE', *, *, #237, .T. ) ;
#220 = CC_DESIGN_APPROVAL ( #278, ( #307 ) ) ;
#221 = FACE_OUTER_BOUND ( 'NONE', #300, .T. ) ;
#222 = FACE_OUTER_BOUND ( 'NONE', #180, .T. ) ;
#223 = DIRECTION ( 'NONE',  ( -0.0000000000000000000, -1.000000000000000000, -0.0000000000000000000 ) ) ;
#224 = DIRECTION ( 'NONE',  ( 0.0000000000000000000, 0.0000000000000000000, -1.000000000000000000 ) ) ;
#225 = EDGE_CURVE ( 'NONE', #179, #103, #117, .T. ) ;
#226 = CC_DESIGN_PERSON_AND_ORGANIZATION_ASSIGNMENT ( #280, #68, ( #307 ) ) ;
#227 = FACE_OUTER_BOUND ( 'NONE', #238, .T. ) ;
#228 = CARTESIAN_POINT ( 'NONE',  ( 0.0000000000000000000, 0.0000000000000000000, 0.0000000000000000000 ) ) ;
#229 = PERSON_AND_ORGANIZATION ( #22, #61 ) ;
#230 = EDGE_CURVE ( 'NONE', #21, #43, #112, .T. ) ;
#231 = PERSON_AND_ORGANIZATION ( #22, #61 ) ;
#232 = APPLICATION_CONTEXT ( 'configuration controlled 3d designs of mechanical parts and assemblies' ) ;
#233 = APPROVAL_PERSON_ORGANIZATION ( #229, #146, #119 ) ;
#234 = PERSON_AND_ORGANIZATION_ROLE ( 'classification_officer' ) ;
#235 = ORIENTED_EDGE ( 'NONE', *, *, #297, .F. ) ;
#236 = ORIENTED_EDGE ( 'NONE', *, *, #297, .T. ) ;
#237 = EDGE_CURVE ( 'NONE', #215, #43, #100, .T. ) ;
#238 = EDGE_LOOP ( 'NONE', ( #47, #153, #236 ) ) ;
#239 = PRODUCT_DEFINITION_SHAPE ( 'NONE', 'NONE',  #200 ) ;
#240 = DIRECTION ( 'NONE',  ( 0.0000000000000000000, 0.0000000000000000000, 1.000000000000000000 ) ) ;
#241 = EDGE_CURVE ( 'NONE', #21, #102, #98, .T. ) ;
#242 = CARTESIAN_POINT ( 'NONE',  ( 138.7999999999999829, 0.0000000000000000000, 0.0000000000000000000 ) ) ;
#243 = CARTESIAN_POINT ( 'NONE',  ( 1.699809757216525939E-14, 0.0000000000000000000, 138.7999999999999829 ) ) ;
#244 = DIRECTION ( 'NONE',  ( -0.0000000000000000000, -1.000000000000000000, -0.0000000000000000000 ) ) ;
#245 = DIRECTION ( 'NONE',  ( 0.0000000000000000000, 0.0000000000000000000, -1.000000000000000000 ) ) ;
#246 = EDGE_CURVE ( 'NONE', #102, #21, #90, .T. ) ;
#247 = ADVANCED_FACE ( 'NONE', ( #9 ), #114, .T. ) ;
#248 = DIRECTION ( 'NONE',  ( 0.0000000000000000000, 0.0000000000000000000, -1.000000000000000000 ) ) ;
#249 = APPLICATION_CONTEXT ( 'configuration controlled 3d designs of mechanical parts and assemblies' ) ;
#250 = DIRECTION ( 'NONE',  ( 0.0000000000000000000, 0.0000000000000000000, 1.000000000000000000 ) ) ;
#251 = DIRECTION ( 'NONE',  ( -0.0000000000000000000, -1.000000000000000000, -0.0000000000000000000 ) ) ;
#252 = PERSON_AND_ORGANIZATION ( #22, #61 ) ;
#253 = CALENDAR_DATE ( 2019, 16, 12 ) ;
#254 = ADVANCED_FACE ( 'NONE', ( #188 ), #269, .F. ) ;
#255 = PRODUCT_RELATED_PRODUCT_CATEGORY ( 'detail', '', ( #131 ) ) ;
#256 = PERSON_AND_ORGANIZATION_ROLE ( 'design_supplier' ) ;
#257 = LOCAL_TIME ( 14, 43, 32.00000000000000000, #19 ) ;
#258 = DATE_AND_TIME ( #177, #292 ) ;
#259 = ORIENTED_EDGE ( 'NONE', *, *, #209, .F. ) ;
#260 = ORIENTED_EDGE ( 'NONE', *, *, #67, .F. ) ;
#261 = EDGE_LOOP ( 'NONE', ( #235, #152, #45, #259 ) ) ;
#262 = CARTESIAN_POINT ( 'NONE',  ( 1.699809757216525623E-14, 150.0000000000000284, 138.7999999999999545 ) ) ;
#263 = ADVANCED_FACE ( 'NONE', ( #32 ), #78, .T. ) ;
#264 = FACE_OUTER_BOUND ( 'NONE', #283, .T. ) ;
#265 = DIRECTION ( 'NONE',  ( 0.0000000000000000000, 0.0000000000000000000, -1.000000000000000000 ) ) ;
#266 = DIRECTION ( 'NONE',  ( -0.0000000000000000000, -1.000000000000000000, -0.0000000000000000000 ) ) ;
#267 = DIRECTION ( 'NONE',  ( 0.0000000000000000000, 0.0000000000000000000, -1.000000000000000000 ) ) ;
#268 = ADVANCED_FACE ( 'NONE', ( #227 ), #64, .F. ) ;
#269 = CYLINDRICAL_SURFACE ( 'NONE', #74, 138.7999999999999829 ) ;
#270 = CC_DESIGN_APPROVAL ( #146, ( #200 ) ) ;
#271 = DIRECTION ( 'NONE',  ( -0.0000000000000000000, -1.000000000000000000, -0.0000000000000000000 ) ) ;
#272 = FACE_OUTER_BOUND ( 'NONE', #261, .T. ) ;
#273 =( NAMED_UNIT ( * ) SI_UNIT ( $, .STERADIAN. ) SOLID_ANGLE_UNIT ( ) );
#274 = MECHANICAL_CONTEXT ( 'NONE', #232, 'mechanical' ) ;
#275 = ADVANCED_BREP_SHAPE_REPRESENTATION ( 'End Cap SDR17_001 115 0140 0315', ( #37, #6 ), #7 ) ;
#276 = PERSON_AND_ORGANIZATION ( #22, #61 ) ;
#277 = EDGE_CURVE ( 'NONE', #302, #198, #54, .T. ) ;
#278 = APPROVAL ( #17, 'BELÝRTÝLMEMÝÞ' ) ;
#279 = UNCERTAINTY_MEASURE_WITH_UNIT (LENGTH_MEASURE( 1.000000000000000082E-05 ), #15, 'distance_accuracy_value', 'NONE');
#280 = PERSON_AND_ORGANIZATION ( #22, #61 ) ;
#281 = APPROVAL_ROLE ( '' ) ;
#282 = ORIENTED_EDGE ( 'NONE', *, *, #216, .F. ) ;
#283 = EDGE_LOOP ( 'NONE', ( #213, #219 ) ) ;
#284 = EDGE_LOOP ( 'NONE', ( #301, #214, #126, #20 ) ) ;
#285 = DIRECTION ( 'NONE',  ( -1.224646799147353207E-16, 0.0000000000000000000, -1.000000000000000000 ) ) ;
#286 = CARTESIAN_POINT ( 'NONE',  ( 6.199825956758096381E-16, -446.4920310496137859, 5.062542082398497456 ) ) ;
#287 = DIRECTION ( 'NONE',  ( -0.0000000000000000000, -1.000000000000000000, -0.0000000000000000000 ) ) ;
#288 = DIRECTION ( 'NONE',  ( -0.0000000000000000000, -1.000000000000000000, -0.0000000000000000000 ) ) ;
#289 = ADVANCED_FACE ( 'NONE', ( #33 ), #142, .T. ) ;
#290 = DIRECTION ( 'NONE',  ( -0.0000000000000000000, -1.000000000000000000, -0.0000000000000000000 ) ) ;
#291 = DIRECTION ( 'NONE',  ( -0.0000000000000000000, -1.000000000000000000, -0.0000000000000000000 ) ) ;
#292 = LOCAL_TIME ( 14, 43, 32.00000000000000000, #69 ) ;
#293 = DIRECTION ( 'NONE',  ( -0.0000000000000000000, -1.000000000000000000, -0.0000000000000000000 ) ) ;
#294 =( NAMED_UNIT ( * ) PLANE_ANGLE_UNIT ( ) SI_UNIT ( $, .RADIAN. ) );
#295 = CARTESIAN_POINT ( 'NONE',  ( 0.0000000000000000000, 0.0000000000000000000, 0.0000000000000000000 ) ) ;
#296 = CALENDAR_DATE ( 2019, 16, 12 ) ;
#297 = EDGE_CURVE ( 'NONE', #49, #198, #36, .T. ) ;
#298 = CALENDAR_DATE ( 2019, 16, 12 ) ;
#299 = DATE_TIME_ROLE ( 'classification_date' ) ;
#300 = EDGE_LOOP ( 'NONE', ( #8, #10, #13 ) ) ;
#301 = ORIENTED_EDGE ( 'NONE', *, *, #241, .T. ) ;
#302 = VERTEX_POINT ( 'NONE', #191 ) ;
#303 = DIRECTION ( 'NONE',  ( -0.0000000000000000000, -1.000000000000000000, -0.0000000000000000000 ) ) ;
#304 = DIRECTION ( 'NONE',  ( 0.0000000000000000000, 0.0000000000000000000, -1.000000000000000000 ) ) ;
#305 = ADVANCED_FACE ( 'NONE', ( #272 ), #63, .F. ) ;
#306 = APPROVAL ( #195, 'BELÝRTÝLMEMÝÞ' ) ;
#307 = PRODUCT_DEFINITION_FORMATION_WITH_SPECIFIED_SOURCE ( 'HERHANGÝ', '', #131, .NOT_KNOWN. ) ;
ENDSEC;
END-ISO-10303-21;
